  0
SECTION
  2
HEADER
  9
$ACADVER
  1
AC1018
  9
$ACADMAINTVER
 70
    39
  9
$DWGCODEPAGE
  3
ANSI_1252
  9
$LASTSAVEDBY
  1
fottrem
  9
$INSBASE
 10
0.0
 20
0.0
 30
0.0
  9
$EXTMIN
 10
15.10005812599484
 20
8.27293947217995
 30
0.0
  9
$EXTMAX
 10
24.15372440341815
 20
18.27254843869655
 30
0.0
  9
$LIMMIN
 10
0.0
 20
0.0
  9
$LIMMAX
 10
12.0
 20
9.0
  9
$ORTHOMODE
 70
     0
  9
$REGENMODE
 70
     1
  9
$FILLMODE
 70
     1
  9
$QTEXTMODE
 70
     0
  9
$MIRRTEXT
 70
     0
  9
$LTSCALE
 40
1.0
  9
$ATTMODE
 70
     1
  9
$TEXTSIZE
 40
0.2
  9
$TRACEWID
 40
0.05
  9
$TEXTSTYLE
  7
Standard
  9
$CLAYER
  8
0
  9
$CELTYPE
  6
ByLayer
  9
$CECOLOR
 62
   256
  9
$CELTSCALE
 40
1.0
  9
$DISPSILH
 70
     0
  9
$DIMSCALE
 40
1.0
  9
$DIMASZ
 40
0.18
  9
$DIMEXO
 40
0.0625
  9
$DIMDLI
 40
0.38
  9
$DIMRND
 40
0.0
  9
$DIMDLE
 40
0.0
  9
$DIMEXE
 40
0.18
  9
$DIMTP
 40
0.0
  9
$DIMTM
 40
0.0
  9
$DIMTXT
 40
0.18
  9
$DIMCEN
 40
0.09
  9
$DIMTSZ
 40
0.0
  9
$DIMTOL
 70
     0
  9
$DIMLIM
 70
     0
  9
$DIMTIH
 70
     1
  9
$DIMTOH
 70
     1
  9
$DIMSE1
 70
     0
  9
$DIMSE2
 70
     0
  9
$DIMTAD
 70
     0
  9
$DIMZIN
 70
     0
  9
$DIMBLK
  1

  9
$DIMASO
 70
     1
  9
$DIMSHO
 70
     1
  9
$DIMPOST
  1

  9
$DIMAPOST
  1

  9
$DIMALT
 70
     0
  9
$DIMALTD
 70
     2
  9
$DIMALTF
 40
25.4
  9
$DIMLFAC
 40
1.0
  9
$DIMTOFL
 70
     0
  9
$DIMTVP
 40
0.0
  9
$DIMTIX
 70
     0
  9
$DIMSOXD
 70
     0
  9
$DIMSAH
 70
     0
  9
$DIMBLK1
  1

  9
$DIMBLK2
  1

  9
$DIMSTYLE
  2
Standard
  9
$DIMCLRD
 70
     0
  9
$DIMCLRE
 70
     0
  9
$DIMCLRT
 70
     0
  9
$DIMTFAC
 40
1.0
  9
$DIMGAP
 40
0.09
  9
$DIMJUST
 70
     0
  9
$DIMSD1
 70
     0
  9
$DIMSD2
 70
     0
  9
$DIMTOLJ
 70
     1
  9
$DIMTZIN
 70
     0
  9
$DIMALTZ
 70
     0
  9
$DIMALTTZ
 70
     0
  9
$DIMUPT
 70
     0
  9
$DIMDEC
 70
     4
  9
$DIMTDEC
 70
     4
  9
$DIMALTU
 70
     2
  9
$DIMALTTD
 70
     2
  9
$DIMTXSTY
  7
Standard
  9
$DIMAUNIT
 70
     0
  9
$DIMADEC
 70
     0
  9
$DIMALTRND
 40
0.0
  9
$DIMAZIN
 70
     0
  9
$DIMDSEP
 70
    46
  9
$DIMATFIT
 70
     3
  9
$DIMFRAC
 70
     0
  9
$DIMLDRBLK
  1

  9
$DIMLUNIT
 70
     2
  9
$DIMLWD
 70
    -2
  9
$DIMLWE
 70
    -2
  9
$DIMTMOVE
 70
     0
  9
$LUNITS
 70
     2
  9
$LUPREC
 70
     4
  9
$SKETCHINC
 40
0.1
  9
$FILLETRAD
 40
0.0
  9
$AUNITS
 70
     0
  9
$AUPREC
 70
     0
  9
$MENU
  1
.
  9
$ELEVATION
 40
0.0
  9
$PELEVATION
 40
0.0
  9
$THICKNESS
 40
0.0
  9
$LIMCHECK
 70
     0
  9
$CHAMFERA
 40
0.0
  9
$CHAMFERB
 40
0.0
  9
$CHAMFERC
 40
0.0
  9
$CHAMFERD
 40
0.0
  9
$SKPOLY
 70
     0
  9
$TDCREATE
 40
2453354.092125822
  9
$TDUCREATE
 40
2453353.717125822
  9
$TDUPDATE
 40
2454792.476698993
  9
$TDUUPDATE
 40
2454792.101698993
  9
$TDINDWG
 40
0.0508911921
  9
$TDUSRTIMER
 40
0.0508674537
  9
$USRTIMER
 70
     1
  9
$ANGBASE
 50
0.0
  9
$ANGDIR
 70
     0
  9
$PDMODE
 70
     0
  9
$PDSIZE
 40
0.0
  9
$PLINEWID
 40
0.0
  9
$SPLFRAME
 70
     0
  9
$SPLINETYPE
 70
     6
  9
$SPLINESEGS
 70
     8
  9
$HANDSEED
  5
321
  9
$SURFTAB1
 70
     6
  9
$SURFTAB2
 70
     6
  9
$SURFTYPE
 70
     6
  9
$SURFU
 70
     6
  9
$SURFV
 70
     6
  9
$UCSBASE
  2

  9
$UCSNAME
  2

  9
$UCSORG
 10
0.0
 20
0.0
 30
0.0
  9
$UCSXDIR
 10
1.0
 20
0.0
 30
0.0
  9
$UCSYDIR
 10
0.0
 20
1.0
 30
0.0
  9
$UCSORTHOREF
  2

  9
$UCSORTHOVIEW
 70
     0
  9
$UCSORGTOP
 10
0.0
 20
0.0
 30
0.0
  9
$UCSORGBOTTOM
 10
0.0
 20
0.0
 30
0.0
  9
$UCSORGLEFT
 10
0.0
 20
0.0
 30
0.0
  9
$UCSORGRIGHT
 10
0.0
 20
0.0
 30
0.0
  9
$UCSORGFRONT
 10
0.0
 20
0.0
 30
0.0
  9
$UCSORGBACK
 10
0.0
 20
0.0
 30
0.0
  9
$PUCSBASE
  2

  9
$PUCSNAME
  2

  9
$PUCSORG
 10
0.0
 20
0.0
 30
0.0
  9
$PUCSXDIR
 10
1.0
 20
0.0
 30
0.0
  9
$PUCSYDIR
 10
0.0
 20
1.0
 30
0.0
  9
$PUCSORTHOREF
  2

  9
$PUCSORTHOVIEW
 70
     0
  9
$PUCSORGTOP
 10
0.0
 20
0.0
 30
0.0
  9
$PUCSORGBOTTOM
 10
0.0
 20
0.0
 30
0.0
  9
$PUCSORGLEFT
 10
0.0
 20
0.0
 30
0.0
  9
$PUCSORGRIGHT
 10
0.0
 20
0.0
 30
0.0
  9
$PUCSORGFRONT
 10
0.0
 20
0.0
 30
0.0
  9
$PUCSORGBACK
 10
0.0
 20
0.0
 30
0.0
  9
$USERI1
 70
     0
  9
$USERI2
 70
     0
  9
$USERI3
 70
     0
  9
$USERI4
 70
     0
  9
$USERI5
 70
     0
  9
$USERR1
 40
0.0
  9
$USERR2
 40
0.0
  9
$USERR3
 40
0.0
  9
$USERR4
 40
0.0
  9
$USERR5
 40
0.0
  9
$WORLDVIEW
 70
     1
  9
$SHADEDGE
 70
     3
  9
$SHADEDIF
 70
    70
  9
$TILEMODE
 70
     1
  9
$MAXACTVP
 70
    64
  9
$PINSBASE
 10
0.0
 20
0.0
 30
0.0
  9
$PLIMCHECK
 70
     0
  9
$PEXTMIN
 10
0.0
 20
0.0
 30
0.0
  9
$PEXTMAX
 10
0.0
 20
0.0
 30
0.0
  9
$PLIMMIN
 10
0.0
 20
0.0
  9
$PLIMMAX
 10
12.0
 20
9.0
  9
$UNITMODE
 70
     0
  9
$VISRETAIN
 70
     1
  9
$PLINEGEN
 70
     0
  9
$PSLTSCALE
 70
     1
  9
$TREEDEPTH
 70
  3020
  9
$CMLSTYLE
  2
Standard
  9
$CMLJUST
 70
     0
  9
$CMLSCALE
 40
1.0
  9
$PROXYGRAPHICS
 70
     1
  9
$MEASUREMENT
 70
     0
  9
$CELWEIGHT
370
    -1
  9
$ENDCAPS
280
     0
  9
$JOINSTYLE
280
     0
  9
$LWDISPLAY
290
     0
  9
$INSUNITS
 70
     1
  9
$HYPERLINKBASE
  1

  9
$STYLESHEET
  1

  9
$XEDIT
290
     0
  9
$CEPSNTYPE
380
     0
  9
$PSTYLEMODE
290
     0
  9
$FINGERPRINTGUID
  2
{8BAE0D3F-6380-4E3D-B0D1-267E31F469C1}
  9
$VERSIONGUID
  2
{6F1AD05E-3764-4268-ADD0-261F181DCA83}
  9
$EXTNAMES
290
     1
  9
$PSVPSCALE
 40
0.0
  9
$OLESTARTUP
290
     0
  9
$SORTENTS
280
   127
  9
$INDEXCTL
280
     0
  9
$HIDETEXT
280
     1
  9
$XCLIPFRAME
290
     0
  9
$HALOGAP
280
     0
  9
$OBSCOLOR
 70
   257
  9
$OBSLTYPE
280
     0
  9
$INTERSECTIONDISPLAY
280
     0
  9
$INTERSECTIONCOLOR
 70
   257
  9
$DIMASSOC
280
     2
  9
$PROJECTNAME
  1

  0
ENDSEC
  0
SECTION
  2
CLASSES
  0
CLASS
  1
ACDBDICTIONARYWDFLT
  2
AcDbDictionaryWithDefault
  3
ObjectDBX Classes
 90
        0
 91
        3
280
     0
281
     0
  0
CLASS
  1
ACDBPLACEHOLDER
  2
AcDbPlaceHolder
  3
ObjectDBX Classes
 90
        0
 91
        1
280
     0
281
     0
  0
CLASS
  1
LAYOUT
  2
AcDbLayout
  3
ObjectDBX Classes
 90
        0
 91
        1
280
     0
281
     0
  0
CLASS
  1
DICTIONARYVAR
  2
AcDbDictionaryVar
  3
ObjectDBX Classes
 90
        0
 91
        3
280
     0
281
     0
  0
CLASS
  1
TABLESTYLE
  2
AcDbTableStyle
  3
ObjectDBX Classes
 90
     2047
 91
        3
280
     0
281
     0
  0
ENDSEC
  0
SECTION
  2
TABLES
  0
TABLE
  2
VPORT
  5
8
330
0
100
AcDbSymbolTable
 70
     2
  0
VPORT
  5
97
330
8
100
AcDbSymbolTableRecord
100
AcDbViewportTableRecord
  2
*Active
 70
     0
 10
0.0
 20
0.0
 11
1.0
 21
1.0
 12
24.92354725961941
 22
13.34254290692209
 13
0.0
 23
0.0
 14
0.5
 24
0.5
 15
0.5
 25
0.5
 16
0.0
 26
0.0
 36
1.0
 17
0.0
 27
0.0
 37
0.0
 40
11.56537559032681
 41
2.031468531468532
 42
50.0
 43
0.0
 44
0.0
 50
0.0
 51
0.0
 71
    16
 72
  1000
 73
     1
 74
     1
 75
     0
 76
     0
 77
     0
 78
     0
281
     0
 65
     0
110
0.0
120
0.0
130
0.0
111
1.0
121
0.0
131
0.0
112
0.0
122
1.0
132
0.0
 79
     0
146
0.0
  0
ENDTAB
  0
TABLE
  2
LTYPE
  5
5
330
0
100
AcDbSymbolTable
 70
     1
  0
LTYPE
  5
14
330
5
100
AcDbSymbolTableRecord
100
AcDbLinetypeTableRecord
  2
ByBlock
 70
     0
  3

 72
    65
 73
     0
 40
0.0
  0
LTYPE
  5
15
330
5
100
AcDbSymbolTableRecord
100
AcDbLinetypeTableRecord
  2
ByLayer
 70
     0
  3

 72
    65
 73
     0
 40
0.0
  0
LTYPE
  5
16
330
5
100
AcDbSymbolTableRecord
100
AcDbLinetypeTableRecord
  2
Continuous
 70
     0
  3
Solid line
 72
    65
 73
     0
 40
0.0
  0
ENDTAB
  0
TABLE
  2
LAYER
  5
2
330
0
100
AcDbSymbolTable
 70
     2
  0
LAYER
  5
10
330
2
100
AcDbSymbolTableRecord
100
AcDbLayerTableRecord
  2
0
 70
     0
 62
     7
  6
Continuous
370
    -3
390
F
  0
LAYER
  5
25B
330
2
100
AcDbSymbolTableRecord
100
AcDbLayerTableRecord
  2
DEFPOINTS
 70
     0
 62
     7
  6
Continuous
290
     0
370
    -3
390
F
  0
ENDTAB
  0
TABLE
  2
STYLE
  5
3
330
0
100
AcDbSymbolTable
 70
     1
  0
STYLE
  5
11
330
3
100
AcDbSymbolTableRecord
100
AcDbTextStyleTableRecord
  2
Standard
 70
     0
 40
0.0
 41
1.0
 50
0.0
 71
     0
 42
0.2
  3
txt
  4

  0
ENDTAB
  0
TABLE
  2
VIEW
  5
6
330
0
100
AcDbSymbolTable
 70
     0
  0
ENDTAB
  0
TABLE
  2
UCS
  5
7
330
0
100
AcDbSymbolTable
 70
     0
  0
ENDTAB
  0
TABLE
  2
APPID
  5
9
330
0
100
AcDbSymbolTable
 70
     1
  0
APPID
  5
12
330
9
100
AcDbSymbolTableRecord
100
AcDbRegAppTableRecord
  2
ACAD
 70
     0
  0
ENDTAB
  0
TABLE
  2
DIMSTYLE
  5
A
330
0
100
AcDbSymbolTable
 70
     1
100
AcDbDimStyleTable
  0
DIMSTYLE
105
27
330
A
100
AcDbSymbolTableRecord
100
AcDbDimStyleTableRecord
  2
Standard
 70
     0
340
11
  0
ENDTAB
  0
TABLE
  2
BLOCK_RECORD
  5
1
330
0
100
AcDbSymbolTable
 70
     1
  0
BLOCK_RECORD
  5
1F
330
1
100
AcDbSymbolTableRecord
100
AcDbBlockTableRecord
  2
*Model_Space
340
22
  0
BLOCK_RECORD
  5
73
330
1
100
AcDbSymbolTableRecord
100
AcDbBlockTableRecord
  2
*Paper_Space
340
74
  0
BLOCK_RECORD
  5
9B
330
1
100
AcDbSymbolTableRecord
100
AcDbBlockTableRecord
  2
*Paper_Space0
340
9C
  0
ENDTAB
  0
ENDSEC
  0
SECTION
  2
BLOCKS
  0
BLOCK
  5
20
330
1F
100
AcDbEntity
  8
0
100
AcDbBlockBegin
  2
*Model_Space
 70
     0
 71
     0
 10
0.0
 20
0.0
 30
0.0
  3
*Model_Space
  1

  0
ENDBLK
  5
21
330
1F
100
AcDbEntity
  8
0
100
AcDbBlockEnd
  0
BLOCK
  5
75
330
73
100
AcDbEntity
 67
     1
  8
0
100
AcDbBlockBegin
  2
*Paper_Space
 70
     0
 71
     0
 10
0.0
 20
0.0
 30
0.0
  3
*Paper_Space
  1

  0
ENDBLK
  5
76
330
73
100
AcDbEntity
 67
     1
  8
0
100
AcDbBlockEnd
  0
BLOCK
  5
31F
330
9B
100
AcDbEntity
  8
0
100
AcDbBlockBegin
  2
*Paper_Space0
 70
     0
 71
     0
 10
0.0
 20
0.0
 30
0.0
  3
*Paper_Space0
  1

  0
ENDBLK
  5
320
330
9B
100
AcDbEntity
  8
0
100
AcDbBlockEnd
  0
ENDSEC
  0
SECTION
  2
ENTITIES
  0
LINE
  5
1FA
330
1F
100
AcDbEntity
  8
0
  6
Continuous
 62
     7
370
    15
100
AcDbLine
 10
19.88027520157957
 20
14.23680702906776
 30
0.0
 11
19.70135886626909
 21
13.22212206938875
 31
0.0
  0
LINE
  5
1FB
330
1F
100
AcDbEntity
  8
0
  6
Continuous
 62
     7
370
    15
100
AcDbLine
 10
19.70135886626909
 20
13.22212206938875
 30
0.0
 11
17.62140889811036
 21
16.19259847053782
 31
0.0
  0
LINE
  5
1FC
330
1F
100
AcDbEntity
  8
0
  6
Continuous
 62
     7
370
    15
100
AcDbLine
 10
17.62140889811036
 20
16.19259847053782
 30
0.0
 11
20.59188529925939
 21
18.27254843869655
 31
0.0
  0
LINE
  5
1FD
330
1F
100
AcDbEntity
  8
0
  6
Continuous
 62
     7
370
    15
100
AcDbLine
 10
20.59188529925939
 20
18.27254843869655
 30
0.0
 11
20.41296896394891
 21
17.25786347901747
 31
0.0
  0
ARC
  5
1FE
330
1F
100
AcDbEntity
  8
0
  6
Continuous
 62
     7
370
    15
100
AcDbCircle
 10
19.62688997070886
 20
12.79978797587096
 30
0.0
 40
4.526848503690909
100
AcDbArc
 50
270.0000000000012
 51
80.00000000000195
  0
LINE
  5
1FF
330
1F
100
AcDbEntity
  8
0
  6
Continuous
 62
     7
370
    15
100
AcDbLine
 10
19.626889970709
 20
8.272939472180042
 30
0.0
 11
19.62688997070891
 21
11.340600587468
 31
0.0
  0
ARC
  5
200
330
1F
100
AcDbEntity
  8
0
  6
Continuous
 62
     7
370
    15
100
AcDbCircle
 10
19.62688997070886
 20
12.79978797587096
 30
0.0
 40
1.459187388402925
100
AcDbArc
 50
270.0000000000007
 51
80.00000000000102
  0
LINE
  5
264
330
1F
100
AcDbEntity
  8
0
100
AcDbLine
 10
19.66180972539141
 20
8.274019076354612
 30
0.0
 11
19.626889970709
 21
8.308938831037013
 31
0.0
  0
LINE
  5
265
330
1F
100
AcDbEntity
  8
0
100
AcDbLine
 10
19.73451522872352
 20
8.276266891828275
 30
0.0
 11
19.626889970709
 21
8.383892149842788
 31
0.0
  0
LINE
  5
266
330
1F
100
AcDbEntity
  8
0
100
AcDbLine
 10
19.80722073205563
 20
8.278514707301936
 30
0.0
 11
19.62688997070899
 21
8.458845468648562
 31
0.0
  0
LINE
  5
267
330
1F
100
AcDbEntity
  8
0
100
AcDbLine
 10
19.87992623538775
 20
8.280762522775602
 30
0.0
 11
19.62688997070899
 21
8.533798787454337
 31
0.0
  0
LINE
  5
268
330
1F
100
AcDbEntity
  8
0
100
AcDbLine
 10
19.95001381559167
 20
8.285628261377457
 30
0.0
 11
19.62688997070899
 21
8.60875210626011
 31
0.0
  0
LINE
  5
269
330
1F
100
AcDbEntity
  8
0
100
AcDbLine
 10
20.01859038797629
 20
8.292005007798608
 30
0.0
 11
19.62688997070899
 21
8.683705425065886
 31
0.0
  0
LINE
  5
26A
330
1F
100
AcDbEntity
  8
0
100
AcDbLine
 10
20.08716696036091
 20
8.298381754219758
 30
0.0
 11
19.62688997070898
 21
8.75865874387166
 31
0.0
  0
LINE
  5
26B
330
1F
100
AcDbEntity
  8
0
100
AcDbLine
 10
20.15574353274554
 20
8.30475850064091
 30
0.0
 11
19.62688997070898
 21
8.833612062677432
 31
0.0
  0
LINE
  5
26C
330
1F
100
AcDbEntity
  8
0
100
AcDbLine
 10
20.2221898758463
 20
8.313265476345924
 30
0.0
 11
19.62688997070898
 21
8.908565381483207
 31
0.0
  0
LINE
  5
26D
330
1F
100
AcDbEntity
  8
0
100
AcDbLine
 10
20.28704093276964
 20
8.323367738228358
 30
0.0
 11
19.62688997070898
 21
8.98351870028898
 31
0.0
  0
LINE
  5
26E
330
1F
100
AcDbEntity
  8
0
100
AcDbLine
 10
20.35189198969298
 20
8.333470000110795
 30
0.0
 11
19.62688997070897
 21
9.058472019094754
 31
0.0
  0
LINE
  5
26F
330
1F
100
AcDbEntity
  8
0
100
AcDbLine
 10
20.41674304661632
 20
8.34357226199323
 30
0.0
 11
19.62688997070897
 21
9.13342533790053
 31
0.0
  0
LINE
  5
270
330
1F
100
AcDbEntity
  8
0
100
AcDbLine
 10
20.48054230305584
 20
8.354726324359483
 30
0.0
 11
19.62688997070897
 21
9.208378656706303
 31
0.0
  0
LINE
  5
271
330
1F
100
AcDbEntity
  8
0
100
AcDbLine
 10
20.54199012626909
 20
8.36823181995201
 30
0.0
 11
19.62688997070896
 21
9.283331975512079
 31
0.0
  0
LINE
  5
272
330
1F
100
AcDbEntity
  8
0
100
AcDbLine
 10
20.60343794948234
 20
8.381737315544537
 30
0.0
 11
19.62688997070896
 21
9.358285294317852
 31
0.0
  0
LINE
  5
273
330
1F
100
AcDbEntity
  8
0
100
AcDbLine
 10
20.66488577269558
 20
8.395242811137068
 30
0.0
 11
19.62688997070896
 21
9.433238613123628
 31
0.0
  0
LINE
  5
274
330
1F
100
AcDbEntity
  8
0
100
AcDbLine
 10
20.72633359590883
 20
8.408748306729596
 30
0.0
 11
19.62688997070896
 21
9.508191931929401
 31
0.0
  0
LINE
  5
275
330
1F
100
AcDbEntity
  8
0
100
AcDbLine
 10
20.78507088027977
 20
8.424964341164433
 30
0.0
 11
19.62688997070895
 21
9.583145250735177
 31
0.0
  0
LINE
  5
276
330
1F
100
AcDbEntity
  8
0
100
AcDbLine
 10
20.84337466519787
 20
8.441613875052106
 30
0.0
 11
19.62688997070894
 21
9.65809856954095
 31
0.0
  0
LINE
  5
277
330
1F
100
AcDbEntity
  8
0
100
AcDbLine
 10
20.90167845011597
 20
8.45826340893978
 30
0.0
 11
19.62688997070895
 21
9.733051888346722
 31
0.0
  0
LINE
  5
278
330
1F
100
AcDbEntity
  8
0
100
AcDbLine
 10
20.95998223503407
 20
8.474912942827453
 30
0.0
 11
19.62688997070894
 21
9.8080052071525
 31
0.0
  0
LINE
  5
279
330
1F
100
AcDbEntity
  8
0
100
AcDbLine
 10
21.01755825994564
 20
8.492290236721656
 30
0.0
 11
19.62688997070894
 21
9.882958525958273
 31
0.0
  0
LINE
  5
27A
330
1F
100
AcDbEntity
  8
0
100
AcDbLine
 10
21.07292709892753
 20
8.511874716545547
 30
0.0
 11
19.62688997070893
 21
9.957911844764048
 31
0.0
  0
LINE
  5
27B
330
1F
100
AcDbEntity
  8
0
100
AcDbLine
 10
21.12829593790942
 20
8.531459196369434
 30
0.0
 11
19.62688997070893
 21
10.03286516356982
 31
0.0
  0
LINE
  5
27C
330
1F
100
AcDbEntity
  8
0
100
AcDbLine
 10
21.1836647768913
 20
8.551043676193325
 30
0.0
 11
19.62688997070893
 21
10.1078184823756
 31
0.0
  0
LINE
  5
27D
330
1F
100
AcDbEntity
  8
0
100
AcDbLine
 10
21.23903361587318
 20
8.570628156017218
 30
0.0
 11
19.62688997070893
 21
10.18277180118137
 31
0.0
  0
LINE
  5
27E
330
1F
100
AcDbEntity
  8
0
100
AcDbLine
 10
21.29306288748697
 20
8.591552203209206
 30
0.0
 11
19.62688997070892
 21
10.25772511998714
 31
0.0
  0
LINE
  5
27F
330
1F
100
AcDbEntity
  8
0
100
AcDbLine
 10
21.34566525115852
 20
8.613903158343431
 30
0.0
 11
19.62688997070892
 21
10.33267843879292
 31
0.0
  0
LINE
  5
280
330
1F
100
AcDbEntity
  8
0
100
AcDbLine
 10
21.39826761483007
 20
8.636254113477651
 30
0.0
 11
19.62688997070892
 21
10.4076317575987
 31
0.0
  0
LINE
  5
281
330
1F
100
AcDbEntity
  8
0
100
AcDbLine
 10
21.45086997850162
 20
8.658605068611875
 30
0.0
 11
19.62688997070892
 21
10.48258507640447
 31
0.0
  0
LINE
  5
282
330
1F
100
AcDbEntity
  8
0
100
AcDbLine
 10
21.50347234217318
 20
8.680956023746099
 30
0.0
 11
19.62688997070891
 21
10.55753839521024
 31
0.0
  0
LINE
  5
283
330
1F
100
AcDbEntity
  8
0
100
AcDbLine
 10
21.55452449472718
 20
8.704857189997869
 30
0.0
 11
19.62688997070891
 21
10.63249171401601
 31
0.0
  0
LINE
  5
284
330
1F
100
AcDbEntity
  8
0
100
AcDbLine
 10
21.60449522807212
 20
8.729839775458696
 30
0.0
 11
19.6268899707089
 21
10.70744503282179
 31
0.0
  0
LINE
  5
285
330
1F
100
AcDbEntity
  8
0
100
AcDbLine
 10
21.65446596141707
 20
8.754822360919524
 30
0.0
 11
19.6268899707089
 21
10.78239835162756
 31
0.0
  0
LINE
  5
286
330
1F
100
AcDbEntity
  8
0
100
AcDbLine
 10
21.70443669476202
 20
8.779804946380354
 30
0.0
 11
19.62688997070889
 21
10.85735167043334
 31
0.0
  0
LINE
  5
287
330
1F
100
AcDbEntity
  8
0
100
AcDbLine
 10
21.75440742810696
 20
8.804787531841182
 30
0.0
 11
19.62688997070889
 21
10.93230498923911
 31
0.0
  0
LINE
  5
288
330
1F
100
AcDbEntity
  8
0
100
AcDbLine
 10
21.80291043916564
 20
8.831237839588278
 30
0.0
 11
19.62688997070889
 21
11.00725830804489
 31
0.0
  0
LINE
  5
289
330
1F
100
AcDbEntity
  8
0
100
AcDbLine
 10
21.85035594834153
 20
8.858745649218166
 30
0.0
 11
19.62688997070889
 21
11.08221162685066
 31
0.0
  0
LINE
  5
28A
330
1F
100
AcDbEntity
  8
0
100
AcDbLine
 10
21.89780145751741
 20
8.886253458848055
 30
0.0
 11
19.62688997070889
 21
11.15716494565644
 31
0.0
  0
LINE
  5
28B
330
1F
100
AcDbEntity
  8
0
100
AcDbLine
 10
21.9452469666933
 20
8.913761268477945
 30
0.0
 11
19.62688997070888
 21
11.23211826446221
 31
0.0
  0
LINE
  5
28C
330
1F
100
AcDbEntity
  8
0
100
AcDbLine
 10
21.99269247586918
 20
8.941269078107833
 30
0.0
 11
19.62688997070888
 21
11.30707158326798
 31
0.0
  0
LINE
  5
28D
330
1F
100
AcDbEntity
  8
0
100
AcDbLine
 10
22.03896560510146
 20
8.969949267681333
 30
0.0
 11
19.66622807384029
 21
11.34268679894234
 31
0.0
  0
LINE
  5
28E
330
1F
100
AcDbEntity
  8
0
100
AcDbLine
 10
22.08396769155715
 20
8.999900500031417
 30
0.0
 11
19.7374065933472
 21
11.34646159824121
 31
0.0
  0
LINE
  5
28F
330
1F
100
AcDbEntity
  8
0
100
AcDbLine
 10
22.12896977801284
 20
9.029851732381502
 30
0.0
 11
19.80605574733264
 21
11.35276576306154
 31
0.0
  0
LINE
  5
290
330
1F
100
AcDbEntity
  8
0
100
AcDbLine
 10
22.17397186446853
 20
9.059802964731581
 30
0.0
 11
19.87065386422305
 21
11.36312096497692
 31
0.0
  0
LINE
  5
291
330
1F
100
AcDbEntity
  8
0
100
AcDbLine
 10
22.21897395092422
 20
9.089754197081666
 30
0.0
 11
19.93512782326624
 21
11.3736003247395
 31
0.0
  0
LINE
  5
292
330
1F
100
AcDbEntity
  8
0
100
AcDbLine
 10
22.26325072845465
 20
9.120430738357014
 30
0.0
 11
19.99408618531388
 21
11.38959528149764
 31
0.0
  0
LINE
  5
293
330
1F
100
AcDbEntity
  8
0
100
AcDbLine
 10
22.30586938142498
 20
9.152765404192456
 30
0.0
 11
20.05304454736151
 21
11.40559023825578
 31
0.0
  0
LINE
  5
294
330
1F
100
AcDbEntity
  8
0
100
AcDbLine
 10
22.34848803439531
 20
9.185100070027897
 30
0.0
 11
20.10954666003588
 21
11.42404144438718
 31
0.0
  0
LINE
  5
295
330
1F
100
AcDbEntity
  8
0
100
AcDbLine
 10
22.39110668736565
 20
9.217434735863334
 30
0.0
 11
20.16351344423868
 21
11.44502797899015
 31
0.0
  0
LINE
  5
296
330
1F
100
AcDbEntity
  8
0
100
AcDbLine
 10
22.43372534033598
 20
9.249769401698776
 30
0.0
 11
20.21748022844149
 21
11.46601451359312
 31
0.0
  0
LINE
  5
297
330
1F
100
AcDbEntity
  8
0
100
AcDbLine
 10
22.47616941825981
 20
9.282278642580719
 30
0.0
 11
20.26770649777519
 21
11.4907415630652
 31
0.0
  0
LINE
  5
298
330
1F
100
AcDbEntity
  8
0
100
AcDbLine
 10
22.51644477705641
 20
9.316956602589888
 30
0.0
 11
20.3171280428847
 21
11.51627333676146
 31
0.0
  0
LINE
  5
299
330
1F
100
AcDbEntity
  8
0
100
AcDbLine
 10
22.55672013585302
 20
9.351634562599056
 30
0.0
 11
20.36636025529666
 21
11.54199444315528
 31
0.0
  0
LINE
  5
29A
330
1F
100
AcDbEntity
  8
0
100
AcDbLine
 10
22.59699549464963
 20
9.386312522608224
 30
0.0
 11
20.41153463714039
 21
11.57177338011732
 31
0.0
  0
LINE
  5
29B
330
1F
100
AcDbEntity
  8
0
100
AcDbLine
 10
22.63727085344624
 20
9.420990482617393
 30
0.0
 11
20.45670901898412
 21
11.60155231707937
 31
0.0
  0
LINE
  5
29C
330
1F
100
AcDbEntity
  8
0
100
AcDbLine
 10
22.67754621224284
 20
9.45566844262656
 30
0.0
 11
20.50111856218617
 21
11.63209609268308
 31
0.0
  0
LINE
  5
29D
330
1F
100
AcDbEntity
  8
0
100
AcDbLine
 10
22.71594015863036
 20
9.492227815044819
 30
0.0
 11
20.54222739185503
 21
11.66594058182001
 31
0.0
  0
LINE
  5
29E
330
1F
100
AcDbEntity
  8
0
100
AcDbLine
 10
22.75389378520994
 20
9.529227507271006
 30
0.0
 11
20.58333622152387
 21
11.69978507095693
 31
0.0
  0
LINE
  5
29F
330
1F
100
AcDbEntity
  8
0
100
AcDbLine
 10
22.79184741178953
 20
9.566227199497192
 30
0.0
 11
20.62330746097351
 21
11.73476715031307
 31
0.0
  0
LINE
  5
2A0
330
1F
100
AcDbEntity
  8
0
100
AcDbLine
 10
22.82980103836912
 20
9.603226891723377
 30
0.0
 11
20.66043370421895
 21
11.7725942258734
 31
0.0
  0
LINE
  5
2A1
330
1F
100
AcDbEntity
  8
0
100
AcDbLine
 10
22.86775466494871
 20
9.640226583949564
 30
0.0
 11
20.69755994746439
 21
11.81042130143373
 31
0.0
  0
LINE
  5
2A2
330
1F
100
AcDbEntity
  8
0
100
AcDbLine
 10
22.90447515212553
 20
9.678459415578507
 30
0.0
 11
20.7332109644068
 21
11.8497236032971
 31
0.0
  0
LINE
  5
2A3
330
1F
100
AcDbEntity
  8
0
100
AcDbLine
 10
22.94011070131208
 20
9.71777718519774
 30
0.0
 11
20.76634669167649
 21
11.89154119483319
 31
0.0
  0
LINE
  5
2A4
330
1F
100
AcDbEntity
  8
0
100
AcDbLine
 10
22.97574625049861
 20
9.75709495481698
 30
0.0
 11
20.79948241894618
 21
11.93335878636927
 31
0.0
  0
LINE
  5
2A5
330
1F
100
AcDbEntity
  8
0
100
AcDbLine
 10
23.01138179968515
 20
9.796412724436212
 30
0.0
 11
20.83068368557121
 21
11.97711083855001
 31
0.0
  0
LINE
  5
2A6
330
1F
100
AcDbEntity
  8
0
100
AcDbLine
 10
23.04701734887169
 20
9.835730494055445
 30
0.0
 11
20.85972934185753
 21
12.02301850106946
 31
0.0
  0
LINE
  5
2A7
330
1F
100
AcDbEntity
  8
0
100
AcDbLine
 10
23.08204765181556
 20
9.87565350991735
 30
0.0
 11
20.88877499814385
 21
12.06892616358891
 31
0.0
  0
LINE
  5
2A8
330
1F
100
AcDbEntity
  8
0
100
AcDbLine
 10
19.70648834917809
 20
13.2512128125546
 30
0.0
 11
19.62143270630575
 21
13.33626845542693
 31
0.0
  0
LINE
  5
2A9
330
1F
100
AcDbEntity
  8
0
100
AcDbLine
 10
23.11535098397894
 20
9.917303496559743
 30
0.0
 11
20.91512622343385
 21
12.11752825710469
 31
0.0
  0
LINE
  5
2AA
330
1F
100
AcDbEntity
  8
0
100
AcDbLine
 10
19.71772356916015
 20
13.31493091137831
 30
0.0
 11
19.44636866857704
 21
13.5862858119614
 31
0.0
  0
LINE
  5
2AB
330
1F
100
AcDbEntity
  8
0
100
AcDbLine
 10
23.14865431614232
 20
9.958953483202134
 30
0.0
 11
20.93988127119446
 21
12.16772652814986
 31
0.0
  0
LINE
  5
2AC
330
1F
100
AcDbEntity
  8
0
100
AcDbLine
 10
19.72895878914222
 20
13.37864901020201
 30
0.0
 11
19.27130463084833
 21
13.83630316849587
 31
0.0
  0
LINE
  5
2AD
330
1F
100
AcDbEntity
  8
0
100
AcDbLine
 10
23.1819576483057
 20
10.00060346984453
 30
0.0
 11
20.96463631895506
 21
12.21792479919503
 31
0.0
  0
LINE
  5
2AE
330
1F
100
AcDbEntity
  8
0
100
AcDbLine
 10
19.74019400912429
 20
13.44236710902572
 30
0.0
 11
19.09624059311963
 21
14.08632052503033
 31
0.0
  0
LINE
  5
2AF
330
1F
100
AcDbEntity
  8
0
100
AcDbLine
 10
23.21526098046909
 20
10.04225345648692
 30
0.0
 11
20.98539431583166
 21
12.27212012112419
 31
0.0
  0
LINE
  5
2B0
330
1F
100
AcDbEntity
  8
0
100
AcDbLine
 10
19.75142922910635
 20
13.50608520784943
 30
0.0
 11
18.92117655539092
 21
14.3363378815648
 31
0.0
  0
LINE
  5
2B1
330
1F
100
AcDbEntity
  8
0
100
AcDbLine
 10
23.24853325437287
 20
10.08393450138891
 30
0.0
 11
21.00553731578566
 21
12.32693043997597
 31
0.0
  0
LINE
  5
2B2
330
1F
100
AcDbEntity
  8
0
100
AcDbLine
 10
19.76266444908842
 20
13.56980330667313
 30
0.0
 11
18.74611251766221
 21
14.58635523809927
 31
0.0
  0
LINE
  5
2B3
330
1F
100
AcDbEntity
  8
0
100
AcDbLine
 10
23.27947199801253
 20
10.12794907655502
 30
0.0
 11
21.02456089465218
 21
12.38286017991522
 31
0.0
  0
LINE
  5
2B4
330
1F
100
AcDbEntity
  8
0
100
AcDbLine
 10
19.77389966907049
 20
13.63352140549683
 30
0.0
 11
18.57104847993351
 21
14.83637259463374
 31
0.0
  0
LINE
  5
2B5
330
1F
100
AcDbEntity
  8
0
100
AcDbLine
 10
23.31041074165219
 20
10.17196365172113
 30
0.0
 11
21.03961458119064
 21
12.44275981218254
 31
0.0
  0
LINE
  5
2B6
330
1F
100
AcDbEntity
  8
0
100
AcDbLine
 10
19.78513488905255
 20
13.69723950432054
 30
0.0
 11
18.3959844422048
 21
15.08638995116821
 31
0.0
  0
LINE
  5
2B7
330
1F
100
AcDbEntity
  8
0
100
AcDbLine
 10
23.34134948529185
 20
10.21597822688725
 30
0.0
 11
21.0546682677291
 21
12.50265944444985
 31
0.0
  0
LINE
  5
2B8
330
1F
100
AcDbEntity
  8
0
100
AcDbLine
 10
19.79637010903462
 20
13.76095760314424
 30
0.0
 11
18.22092040447609
 21
15.33640730770267
 31
0.0
  0
LINE
  5
2B9
330
1F
100
AcDbEntity
  8
0
100
AcDbLine
 10
23.37228822893151
 20
10.25999280205336
 30
0.0
 11
21.06557355890355
 21
12.56670747208117
 31
0.0
  0
LINE
  5
2BA
330
1F
100
AcDbEntity
  8
0
100
AcDbLine
 10
19.80760532901669
 20
13.82467570196795
 30
0.0
 11
18.04585636674738
 21
15.58642466423714
 31
0.0
  0
LINE
  5
2BB
330
1F
100
AcDbEntity
  8
0
100
AcDbLine
 10
23.40322697257117
 20
10.30400737721947
 30
0.0
 11
21.07484613808886
 21
12.63238821170163
 31
0.0
  0
LINE
  5
2BC
330
1F
100
AcDbEntity
  8
0
100
AcDbLine
 10
19.81884054899875
 20
13.88839380079166
 30
0.0
 11
17.87079232901867
 21
15.83644202077161
 31
0.0
  0
LINE
  5
2BD
330
1F
100
AcDbEntity
  8
0
100
AcDbLine
 10
23.43220166689931
 20
10.34998600169711
 30
0.0
 11
21.08148804322211
 21
12.70069962537416
 31
0.0
  0
LINE
  5
2BE
330
1F
100
AcDbEntity
  8
0
100
AcDbLine
 10
19.83007576898082
 20
13.95211189961536
 30
0.0
 11
17.69572829128997
 21
16.08645937730607
 31
0.0
  0
LINE
  5
2BF
330
1F
100
AcDbEntity
  8
0
100
AcDbLine
 10
23.46072420208264
 20
10.39641678531955
 30
0.0
 11
21.0839734527146
 21
12.77316753468743
 31
0.0
  0
LINE
  5
2C0
330
1F
100
AcDbEntity
  8
0
100
AcDbLine
 10
19.84131098896289
 20
14.01582999843906
 30
0.0
 11
17.64677851786811
 21
16.21036246953371
 31
0.0
  0
LINE
  5
2C1
330
1F
100
AcDbEntity
  8
0
100
AcDbLine
 10
23.48924673726597
 20
10.44284756894199
 30
0.0
 11
21.08433698249222
 21
12.84775732371558
 31
0.0
  0
LINE
  5
2C2
330
1F
100
AcDbEntity
  8
0
100
AcDbLine
 10
19.85254620894496
 20
14.07954809726277
 30
0.0
 11
17.69086332347054
 21
16.24123098273704
 31
0.0
  0
LINE
  5
2C3
330
1F
100
AcDbEntity
  8
0
100
AcDbLine
 10
23.5177692724493
 20
10.48927835256444
 30
0.0
 11
21.07853850274823
 21
12.92850912226535
 31
0.0
  0
LINE
  5
2C4
330
1F
100
AcDbEntity
  8
0
100
AcDbLine
 10
19.86378142892702
 20
14.14326619608647
 30
0.0
 11
17.73494812907298
 21
16.27209949594038
 31
0.0
  0
LINE
  5
2C5
330
1F
100
AcDbEntity
  8
0
100
AcDbLine
 10
23.54629180763263
 20
10.53570913618688
 30
0.0
 11
21.06905905533603
 21
13.01294188848331
 31
0.0
  0
LINE
  5
2C6
330
1F
100
AcDbEntity
  8
0
100
AcDbLine
 10
19.87501664890909
 20
14.20698429491018
 30
0.0
 11
17.77903293467541
 21
16.30296800914372
 31
0.0
  0
LINE
  5
2C7
330
1F
100
AcDbEntity
  8
0
100
AcDbLine
 10
23.57312556422015
 20
10.58382869840513
 30
0.0
 11
21.05265687773181
 21
13.10429738489331
 31
0.0
  0
LINE
  5
2C8
330
1F
100
AcDbEntity
  8
0
100
AcDbLine
 10
19.93215980906964
 20
14.22479445355541
 30
0.0
 11
17.82311774027785
 21
16.33383652234706
 31
0.0
  0
LINE
  5
2C9
330
1F
100
AcDbEntity
  8
0
100
AcDbLine
 10
23.59915935797046
 20
10.63274822346059
 30
0.0
 11
21.02641208445197
 21
13.20549549697891
 31
0.0
  0
LINE
  5
2CA
330
1F
100
AcDbEntity
  8
0
100
AcDbLine
 10
20.02969493164601
 20
14.20221264978481
 30
0.0
 11
17.86720254588029
 21
16.36470503555039
 31
0.0
  0
LINE
  5
2CB
330
1F
100
AcDbEntity
  8
0
100
AcDbLine
 10
23.62519315172077
 20
10.68166774851606
 30
0.0
 11
20.98960608667178
 21
13.31725481356488
 31
0.0
  0
LINE
  5
2CC
330
1F
100
AcDbEntity
  8
0
100
AcDbLine
 10
20.14417406754744
 20
14.16268683268916
 30
0.0
 11
17.91128735148272
 21
16.39557354875373
 31
0.0
  0
LINE
  5
2CD
330
1F
100
AcDbEntity
  8
0
100
AcDbLine
 10
23.65122694547108
 20
10.73058727357152
 30
0.0
 11
20.93182002148664
 21
13.44999419755578
 31
0.0
  0
LINE
  5
2CE
330
1F
100
AcDbEntity
  8
0
100
AcDbLine
 10
20.27798929378608
 20
14.1038249252563
 30
0.0
 11
17.95537215708516
 21
16.42644206195707
 31
0.0
  0
LINE
  5
2CF
330
1F
100
AcDbEntity
  8
0
100
AcDbLine
 10
23.67726073922139
 20
10.77950679862698
 30
0.0
 11
20.8192461972464
 21
13.63752134060178
 31
0.0
  0
LINE
  5
2D0
330
1F
100
AcDbEntity
  8
0
100
AcDbLine
 10
20.45924453529783
 20
13.99752300255033
 30
0.0
 11
17.9994569626876
 21
16.45731057516041
 31
0.0
  0
LINE
  5
2D1
330
1F
100
AcDbEntity
  8
0
100
AcDbLine
 10
23.70166659710581
 20
10.83005425954833
 30
0.0
 11
18.04354176829003
 21
16.48817908836375
 31
0.0
  0
LINE
  5
2D2
330
1F
100
AcDbEntity
  8
0
100
AcDbLine
 10
23.72511577380859
 20
10.88155840165132
 30
0.0
 11
18.08762657389247
 21
16.51904760156708
 31
0.0
  0
LINE
  5
2D3
330
1F
100
AcDbEntity
  8
0
100
AcDbLine
 10
23.74856495051138
 20
10.93306254375431
 30
0.0
 11
18.1317113794949
 21
16.54991611477042
 31
0.0
  0
LINE
  5
2D4
330
1F
100
AcDbEntity
  8
0
100
AcDbLine
 10
23.77201412721416
 20
10.98456668585731
 30
0.0
 11
18.17579618509734
 21
16.58078462797376
 31
0.0
  0
LINE
  5
2D5
330
1F
100
AcDbEntity
  8
0
100
AcDbLine
 10
23.79546330391694
 20
11.03607082796029
 30
0.0
 11
18.21988099069978
 21
16.61165314117709
 31
0.0
  0
LINE
  5
2D6
330
1F
100
AcDbEntity
  8
0
100
AcDbLine
 10
23.81705529681857
 20
11.08943215386443
 30
0.0
 11
18.26396579630222
 21
16.64252165438043
 31
0.0
  0
LINE
  5
2D7
330
1F
100
AcDbEntity
  8
0
100
AcDbLine
 10
23.83779726418887
 20
11.14364350529991
 30
0.0
 11
18.30805060190465
 21
16.67339016758377
 31
0.0
  0
LINE
  5
2D8
330
1F
100
AcDbEntity
  8
0
100
AcDbLine
 10
23.85853923155917
 20
11.19785485673538
 30
0.0
 11
18.35213540750709
 21
16.70425868078711
 31
0.0
  0
LINE
  5
2D9
330
1F
100
AcDbEntity
  8
0
100
AcDbLine
 10
23.87928119892947
 20
11.25206620817085
 30
0.0
 11
18.39622021310953
 21
16.73512719399045
 31
0.0
  0
LINE
  5
2DA
330
1F
100
AcDbEntity
  8
0
100
AcDbLine
 10
23.90002316629977
 20
11.30627755960633
 30
0.0
 11
18.44030501871196
 21
16.76599570719378
 31
0.0
  0
LINE
  5
2DB
330
1F
100
AcDbEntity
  8
0
100
AcDbLine
 10
23.91828762913329
 20
11.36296641557858
 30
0.0
 11
18.4843898243144
 21
16.79686422039712
 31
0.0
  0
LINE
  5
2DC
330
1F
100
AcDbEntity
  8
0
100
AcDbLine
 10
23.93616849409644
 20
11.42003886942121
 30
0.0
 11
18.52847462991684
 21
16.82773273360046
 31
0.0
  0
LINE
  5
2DD
330
1F
100
AcDbEntity
  8
0
100
AcDbLine
 10
23.95404935905958
 20
11.47711132326384
 30
0.0
 11
18.57255943551927
 21
16.85860124680379
 31
0.0
  0
LINE
  5
2DE
330
1F
100
AcDbEntity
  8
0
100
AcDbLine
 10
23.97193022402272
 20
11.53418377710647
 30
0.0
 11
18.61664424112171
 21
16.88946976000713
 31
0.0
  0
LINE
  5
2DF
330
1F
100
AcDbEntity
  8
0
100
AcDbLine
 10
23.9892372091405
 20
11.59183011079447
 30
0.0
 11
18.66072904672414
 21
16.92033827321047
 31
0.0
  0
LINE
  5
2E0
330
1F
100
AcDbEntity
  8
0
100
AcDbLine
 10
24.00406559398905
 20
11.65195504475168
 30
0.0
 11
18.70481385232658
 21
16.95120678641381
 31
0.0
  0
LINE
  5
2E1
330
1F
100
AcDbEntity
  8
0
100
AcDbLine
 10
24.01889397883761
 20
11.7120799787089
 30
0.0
 11
18.74889865792902
 21
16.98207529961715
 31
0.0
  0
LINE
  5
2E2
330
1F
100
AcDbEntity
  8
0
100
AcDbLine
 10
24.03372236368617
 20
11.77220491266611
 30
0.0
 11
18.79298346353145
 21
17.01294381282048
 31
0.0
  0
LINE
  5
2E3
330
1F
100
AcDbEntity
  8
0
100
AcDbLine
 10
24.04855074853473
 20
11.83232984662333
 30
0.0
 11
18.83706826913389
 21
17.04381232602382
 31
0.0
  0
LINE
  5
2E4
330
1F
100
AcDbEntity
  8
0
100
AcDbLine
 10
24.061174652047
 20
11.89465926191683
 30
0.0
 11
18.88115307473633
 21
17.07468083922716
 31
0.0
  0
LINE
  5
2E5
330
1F
100
AcDbEntity
  8
0
100
AcDbLine
 10
24.07271333666175
 20
11.95807389610784
 30
0.0
 11
18.92523788033876
 21
17.1055493524305
 31
0.0
  0
LINE
  5
2E6
330
1F
100
AcDbEntity
  8
0
100
AcDbLine
 10
24.08425202127651
 20
12.02148853029886
 30
0.0
 11
18.9693226859412
 21
17.13641786563383
 31
0.0
  0
LINE
  5
2E7
330
1F
100
AcDbEntity
  8
0
100
AcDbLine
 10
24.09579070589126
 20
12.08490316448988
 30
0.0
 11
19.01340749154364
 21
17.16728637883717
 31
0.0
  0
LINE
  5
2E8
330
1F
100
AcDbEntity
  8
0
100
AcDbLine
 10
24.10614834505126
 20
12.14949884413565
 30
0.0
 11
19.05749229714608
 21
17.19815489204051
 31
0.0
  0
LINE
  5
2E9
330
1F
100
AcDbEntity
  8
0
100
AcDbLine
 10
24.11410287773464
 20
12.21649763025804
 30
0.0
 11
19.10157710274851
 21
17.22902340524385
 31
0.0
  0
LINE
  5
2EA
330
1F
100
AcDbEntity
  8
0
100
AcDbLine
 10
24.12205741041802
 20
12.28349641638044
 30
0.0
 11
19.14566190835095
 21
17.25989191844719
 31
0.0
  0
LINE
  5
2EB
330
1F
100
AcDbEntity
  8
0
100
AcDbLine
 10
24.1300119431014
 20
12.35049520250283
 30
0.0
 11
19.18974671395339
 21
17.29076043165052
 31
0.0
  0
LINE
  5
2EC
330
1F
100
AcDbEntity
  8
0
100
AcDbLine
 10
24.13724416121598
 20
12.41821630319402
 30
0.0
 11
19.23383151955582
 21
17.32162894485386
 31
0.0
  0
LINE
  5
2ED
330
1F
100
AcDbEntity
  8
0
100
AcDbLine
 10
24.14124713296571
 20
12.48916665025007
 30
0.0
 11
19.27791632515826
 21
17.3524974580572
 31
0.0
  0
LINE
  5
2EE
330
1F
100
AcDbEntity
  8
0
100
AcDbLine
 10
24.14525010471543
 20
12.56011699730611
 30
0.0
 11
19.3220011307607
 21
17.38336597126053
 31
0.0
  0
LINE
  5
2EF
330
1F
100
AcDbEntity
  8
0
100
AcDbLine
 10
24.14925307646516
 20
12.63106734436216
 30
0.0
 11
19.36608593636313
 21
17.41423448446388
 31
0.0
  0
LINE
  5
2F0
330
1F
100
AcDbEntity
  8
0
100
AcDbLine
 10
24.15217118798261
 20
12.70310255165048
 30
0.0
 11
19.41017074196557
 21
17.44510299766721
 31
0.0
  0
LINE
  5
2F1
330
1F
100
AcDbEntity
  8
0
100
AcDbLine
 10
24.1517601350235
 20
12.77846692341536
 30
0.0
 11
19.45425554756801
 21
17.47597151087055
 31
0.0
  0
LINE
  5
2F2
330
1F
100
AcDbEntity
  8
0
100
AcDbLine
 10
24.1513490820644
 20
12.85383129518024
 30
0.0
 11
19.49834035317044
 21
17.50684002407389
 31
0.0
  0
LINE
  5
2F3
330
1F
100
AcDbEntity
  8
0
100
AcDbLine
 10
24.15093802910529
 20
12.92919566694511
 30
0.0
 11
19.54242515877288
 21
17.53770853727723
 31
0.0
  0
LINE
  5
2F4
330
1F
100
AcDbEntity
  8
0
100
AcDbLine
 10
24.14785768814512
 20
13.00722932671106
 30
0.0
 11
19.58650996437532
 21
17.56857705048056
 31
0.0
  0
LINE
  5
2F5
330
1F
100
AcDbEntity
  8
0
100
AcDbLine
 10
24.14244335616071
 20
13.08759697750123
 30
0.0
 11
19.63059476997775
 21
17.5994455636839
 31
0.0
  0
LINE
  5
2F6
330
1F
100
AcDbEntity
  8
0
100
AcDbLine
 10
24.13702902417631
 20
13.16796462829141
 30
0.0
 11
19.67467957558019
 21
17.63031407688724
 31
0.0
  0
LINE
  5
2F7
330
1F
100
AcDbEntity
  8
0
100
AcDbLine
 10
24.13126775631932
 20
13.24867921495417
 30
0.0
 11
19.71876438118262
 21
17.66118259009058
 31
0.0
  0
LINE
  5
2F8
330
1F
100
AcDbEntity
  8
0
100
AcDbLine
 10
24.12008730177905
 20
13.33481298830021
 30
0.0
 11
19.76284918678506
 21
17.69205110329391
 31
0.0
  0
LINE
  5
2F9
330
1F
100
AcDbEntity
  8
0
100
AcDbLine
 10
24.10890684723878
 20
13.42094676164625
 30
0.0
 11
19.8069339923875
 21
17.72291961649725
 31
0.0
  0
LINE
  5
2FA
330
1F
100
AcDbEntity
  8
0
100
AcDbLine
 10
24.0977263926985
 20
13.5070805349923
 30
0.0
 11
19.85101879798994
 21
17.75378812970059
 31
0.0
  0
LINE
  5
2FB
330
1F
100
AcDbEntity
  8
0
100
AcDbLine
 10
24.08086256493077
 20
13.5988976815658
 30
0.0
 11
20.42424684955215
 21
17.25551339694418
 31
0.0
  0
LINE
  5
2FC
330
1F
100
AcDbEntity
  8
0
100
AcDbLine
 10
20.41430720804821
 20
17.26545303844812
 30
0.0
 11
19.89510360359237
 21
17.78465664290393
 31
0.0
  0
LINE
  5
2FD
330
1F
100
AcDbEntity
  8
0
100
AcDbLine
 10
24.06290831676463
 20
13.69180524853771
 30
0.0
 11
20.51893026773464
 21
17.23578329756747
 31
0.0
  0
LINE
  5
2FE
330
1F
100
AcDbEntity
  8
0
100
AcDbLine
 10
20.42554242803028
 20
17.32917113727182
 30
0.0
 11
19.93918840919481
 21
17.81552515610727
 31
0.0
  0
LINE
  5
2FF
330
1F
100
AcDbEntity
  8
0
100
AcDbLine
 10
24.04495406859849
 20
13.78471281550963
 30
0.0
 11
20.61361368591713
 21
17.21605319819076
 31
0.0
  0
LINE
  5
300
330
1F
100
AcDbEntity
  8
0
100
AcDbLine
 10
20.43677764801235
 20
17.39288923609553
 30
0.0
 11
19.98327321479725
 21
17.8463936693106
 31
0.0
  0
LINE
  5
301
330
1F
100
AcDbEntity
  8
0
100
AcDbLine
 10
24.01981816897949
 20
13.88480203393439
 30
0.0
 11
20.71022816837608
 21
17.19439203453759
 31
0.0
  0
LINE
  5
302
330
1F
100
AcDbEntity
  8
0
100
AcDbLine
 10
20.44801286799441
 20
17.45660733491923
 30
0.0
 11
20.02735802039969
 21
17.87726218251394
 31
0.0
  0
LINE
  5
303
330
1F
100
AcDbEntity
  8
0
100
AcDbLine
 10
23.9937249536824
 20
13.98584856803725
 30
0.0
 11
20.8134417256555
 21
17.16613179606395
 31
0.0
  0
LINE
  5
304
330
1F
100
AcDbEntity
  8
0
100
AcDbLine
 10
20.45924808797648
 20
17.52032543374294
 30
0.0
 11
20.07144282600212
 21
17.90813069571728
 31
0.0
  0
LINE
  5
305
330
1F
100
AcDbEntity
  8
0
100
AcDbLine
 10
23.96560672300719
 20
14.08892011751823
 30
0.0
 11
20.91665528293493
 21
17.1378715575903
 31
0.0
  0
LINE
  5
306
330
1F
100
AcDbEntity
  8
0
100
AcDbLine
 10
20.47048330795855
 20
17.58404353256665
 30
0.0
 11
20.11552763160456
 21
17.93899920892062
 31
0.0
  0
LINE
  5
307
330
1F
100
AcDbEntity
  8
0
100
AcDbLine
 10
23.92946513420814
 20
14.20001502512305
 30
0.0
 11
21.02636030584369
 21
17.10311985348731
 31
0.0
  0
LINE
  5
308
330
1F
100
AcDbEntity
  8
0
100
AcDbLine
 10
20.48171852794061
 20
17.64776163139036
 30
0.0
 11
20.159612437207
 21
17.96986772212395
 31
0.0
  0
LINE
  5
309
330
1F
100
AcDbEntity
  8
0
100
AcDbLine
 10
23.8933235454091
 20
14.31110993272786
 30
0.0
 11
21.14018170346825
 21
17.06425177466853
 31
0.0
  0
LINE
  5
30A
330
1F
100
AcDbEntity
  8
0
100
AcDbLine
 10
20.49295374792268
 20
17.71147973021406
 30
0.0
 11
20.20369724280943
 21
18.00073623532729
 31
0.0
  0
LINE
  5
30B
330
1F
100
AcDbEntity
  8
0
100
AcDbLine
 10
23.84683195844595
 20
14.43255483849678
 30
0.0
 11
21.25790966098727
 21
17.02147713595529
 31
0.0
  0
LINE
  5
30C
330
1F
100
AcDbEntity
  8
0
100
AcDbLine
 10
20.50418896790475
 20
17.77519782903777
 30
0.0
 11
20.24778204841187
 21
18.03160474853063
 31
0.0
  0
LINE
  5
30D
330
1F
100
AcDbEntity
  8
0
100
AcDbLine
 10
23.79786044532404
 20
14.55647967042446
 30
0.0
 11
21.3853997610296
 21
16.96894035471874
 31
0.0
  0
LINE
  5
30E
330
1F
100
AcDbEntity
  8
0
100
AcDbLine
 10
20.51542418788681
 20
17.83891592786147
 30
0.0
 11
20.29186685401431
 21
18.06247326173397
 31
0.0
  0
LINE
  5
30F
330
1F
100
AcDbEntity
  8
0
100
AcDbLine
 10
23.7367955854608
 20
14.69249784909346
 30
0.0
 11
21.51762631979103
 21
16.91166711476309
 31
0.0
  0
LINE
  5
310
330
1F
100
AcDbEntity
  8
0
100
AcDbLine
 10
20.52665940786888
 20
17.90263402668518
 30
0.0
 11
20.33595165961674
 21
18.0933417749373
 31
0.0
  0
LINE
  5
311
330
1F
100
AcDbEntity
  8
0
100
AcDbLine
 10
23.67072058805186
 20
14.83352616530817
 30
0.0
 11
21.66355863245041
 21
16.8406881209095
 31
0.0
  0
LINE
  5
312
330
1F
100
AcDbEntity
  8
0
100
AcDbLine
 10
20.53789462785095
 20
17.96635212550888
 30
0.0
 11
20.38003646521918
 21
18.12421028814064
 31
0.0
  0
LINE
  5
313
330
1F
100
AcDbEntity
  8
0
100
AcDbLine
 10
23.58264455155492
 20
14.99655552061088
 30
0.0
 11
21.82360418993946
 21
16.75559588222623
 31
0.0
  0
LINE
  5
314
330
1F
100
AcDbEntity
  8
0
100
AcDbLine
 10
20.54912984783302
 20
18.03007022433259
 30
0.0
 11
20.42412127082162
 21
18.15507880134398
 31
0.0
  0
LINE
  5
315
330
1F
100
AcDbEntity
  8
0
100
AcDbLine
 10
23.47667969761303
 20
15.17747369335853
 30
0.0
 11
22.00103801934974
 21
16.65311537162173
 31
0.0
  0
LINE
  5
316
330
1F
100
AcDbEntity
  8
0
100
AcDbLine
 10
20.56036506781508
 20
18.0937883231563
 30
0.0
 11
20.46820607642405
 21
18.18594731454732
 31
0.0
  0
LINE
  5
317
330
1F
100
AcDbEntity
  8
0
100
AcDbLine
 10
23.33293367527958
 20
15.39617303449774
 30
0.0
 11
22.21701221655799
 21
16.51209449321927
 31
0.0
  0
LINE
  5
318
330
1F
100
AcDbEntity
  8
0
100
AcDbLine
 10
20.57160028779715
 20
18.15750642198
 30
0.0
 11
20.51229088202649
 21
18.21681582775065
 31
0.0
  0
LINE
  5
319
330
1F
100
AcDbEntity
  8
0
100
AcDbLine
 10
23.08277927210198
 20
15.7212807564811
 30
0.0
 11
22.55335615010824
 21
16.25070387847481
 31
0.0
  0
LINE
  5
31A
330
1F
100
AcDbEntity
  8
0
100
AcDbLine
 10
20.58283550777922
 20
18.22122452080371
 30
0.0
 11
20.55637568762893
 21
18.24768434095399
 31
0.0
  0
ENDSEC
  0
SECTION
  2
OBJECTS
  0
DICTIONARY
  5
C
330
0
100
AcDbDictionary
281
     1
  3
ACAD_COLOR
350
6C
  3
ACAD_GROUP
350
D
  3
ACAD_LAYOUT
350
1A
  3
ACAD_MATERIAL
350
6B
  3
ACAD_MLINESTYLE
350
17
  3
ACAD_PLOTSETTINGS
350
19
  3
ACAD_PLOTSTYLENAME
350
E
  3
ACAD_TABLESTYLE
350
92
  3
AcDbVariableDictionary
350
59
  0
DICTIONARY
  5
6C
102
{ACAD_REACTORS
330
C
102
}
330
C
100
AcDbDictionary
281
     1
  0
DICTIONARY
  5
D
102
{ACAD_REACTORS
330
C
102
}
330
C
100
AcDbDictionary
281
     1
  0
DICTIONARY
  5
1A
102
{ACAD_REACTORS
330
C
102
}
330
C
100
AcDbDictionary
281
     1
  3
Layout1
350
74
  3
Layout2
350
9C
  3
Model
350
22
  0
DICTIONARY
  5
6B
102
{ACAD_REACTORS
330
C
102
}
330
C
100
AcDbDictionary
281
     1
  0
DICTIONARY
  5
17
102
{ACAD_REACTORS
330
C
102
}
330
C
100
AcDbDictionary
281
     1
  3
Standard
350
18
  0
DICTIONARY
  5
19
102
{ACAD_REACTORS
330
C
102
}
330
C
100
AcDbDictionary
281
     1
  0
ACDBDICTIONARYWDFLT
  5
E
102
{ACAD_REACTORS
330
C
102
}
330
C
100
AcDbDictionary
281
     1
  3
Normal
350
F
100
AcDbDictionaryWithDefault
340
F
  0
DICTIONARY
  5
92
102
{ACAD_REACTORS
330
C
102
}
330
C
100
AcDbDictionary
281
     1
  0
DICTIONARY
  5
59
102
{ACAD_REACTORS
330
C
102
}
330
C
100
AcDbDictionary
281
     1
  0
LAYOUT
  5
74
102
{ACAD_REACTORS
330
1A
102
}
330
1A
100
AcDbPlotSettings
  1

  2
\\ADSCCNDC1\hq601xrx1
  4

  6

 40
0.0
 41
0.0
 42
0.0
 43
0.0
 44
0.0
 45
0.0
 46
0.0
 47
0.0
 48
0.0
 49
0.0
140
0.0
141
0.0
142
1.0
143
1.0
 70
   688
 72
     0
 73
     0
 74
     5
  7

 75
    16
 76
     0
 77
     2
 78
   300
147
1.0
148
0.0
149
0.0
100
AcDbLayout
  1
Layout1
 70
     1
 71
     1
 10
0.0
 20
0.0
 11
12.0
 21
9.0
 12
0.0
 22
0.0
 32
0.0
 14
0.0
 24
0.0
 34
0.0
 15
0.0
 25
0.0
 35
0.0
146
0.0
 13
0.0
 23
0.0
 33
0.0
 16
1.0
 26
0.0
 36
0.0
 17
0.0
 27
1.0
 37
0.0
 76
     0
330
73
  0
LAYOUT
  5
9C
102
{ACAD_REACTORS
330
1A
102
}
330
1A
100
AcDbPlotSettings
  1

  2
None
  4

  6

 40
0.0
 41
0.0
 42
0.0
 43
0.0
 44
0.0
 45
0.0
 46
0.0
 47
0.0
 48
0.0
 49
0.0
140
0.0
141
0.0
142
1.0
143
1.0
 70
   688
 72
     0
 73
     0
 74
     5
  7

 75
    16
 76
     0
 77
     2
 78
   300
147
1.0
148
0.0
149
0.0
100
AcDbLayout
  1
Layout2
 70
     1
 71
     2
 10
0.0
 20
0.0
 11
12.0
 21
9.0
 12
0.0
 22
0.0
 32
0.0
 14
1.000000000000000E+20
 24
1.000000000000000E+20
 34
1.000000000000000E+20
 15
-1.000000000000000E+20
 25
-1.000000000000000E+20
 35
-1.000000000000000E+20
146
0.0
 13
0.0
 23
0.0
 33
0.0
 16
1.0
 26
0.0
 36
0.0
 17
0.0
 27
1.0
 37
0.0
 76
     0
330
9B
  0
LAYOUT
  5
22
102
{ACAD_REACTORS
330
1A
102
}
330
1A
100
AcDbPlotSettings
  1

  2
none_device
  4
Letter_(8.50_x_11.00_Inches)
  6

 40
6.349999904632568
 41
6.349999904632568
 42
6.350006103515625
 43
6.350006103515625
 44
215.8999938964844
 45
279.3999938964844
 46
0.0
 47
0.0
 48
0.0
 49
0.0
140
0.0
141
0.0
142
1.0
143
3.560208697428377
 70
 11952
 72
     0
 73
     1
 74
     0
  7

 75
     0
 76
     0
 77
     2
 78
   300
147
0.28088241027059
148
0.1311165230791651
149
0.096403374003771
100
AcDbLayout
  1
Model
 70
     1
 71
     0
 10
0.0
 20
0.0
 11
12.0
 21
9.0
 12
0.0
 22
0.0
 32
0.0
 14
15.10005812599484
 24
8.27293947217995
 34
0.0
 15
24.15372440341815
 25
18.27254843869655
 35
0.0
146
0.0
 13
0.0
 23
0.0
 33
0.0
 16
1.0
 26
0.0
 36
0.0
 17
0.0
 27
1.0
 37
0.0
 76
     0
330
1F
  0
MLINESTYLE
  5
18
102
{ACAD_REACTORS
330
17
102
}
330
17
100
AcDbMlineStyle
  2
Standard
 70
     0
  3

 62
   256
 51
90.0
 52
90.0
 71
     2
 49
0.5
 62
   256
  6
BYLAYER
 49
-0.5
 62
   256
  6
BYLAYER
  0
ACDBPLACEHOLDER
  5
F
102
{ACAD_REACTORS
330
E
102
}
330
E
  0
ENDSEC
  0
EOF
